Skip to main content

LeadGuitar.mx

Lecciones de guitarra gratis en español, tablaturas para guitar pro, backing tracks, videos, descargas y más cosas para guitarristas.

Iniciar sesión Únete

Introducción al Blues y algunos ejercicios

Introducción al Blues y algunos ejercicios
2014-06-19 22:16

En el artículo de hoy vamos a dar una introducción al blues, su historia,  la escala de blues y también algunos ejercicios, para comenzar a practicar con nuestra guitarra.  

Introducción al Blues

Para dar introducción al blues vamos a empezar con un poquito de historia acerca del Blues. Nacido entre las comunidades afroamericanas de Estados Unidos el Blues se caracteriza por tener una estructura de 12 compases y patrones de llamada y respuesta repetitivos utilizando la escala de Blues. En el Blues se utilizan mucho las “técnicas de expresión” en la guitarra como los bends, vibrato, slides y también la técnica armónica que después fue influencia para los solos del Rock. Mas sobre la historia del Blues. Para continuar con la introducción al blues cabe destacar que la utilización de terceras, quintas y séptimas disminuidas (Notas de Blues), las cuales pueden sustituir a las notas naturales de la escala o añadirse como en la escala pentatónica menor de Blues. En la siguiente tablatura podemos ver un ritmo clásico de Blues:

 
 
Introducción al blues - ritmo clásico
 
 

La escala de Blues

La escala de Blues es una derivación de la escala pentatónica menor a la cual se le añade una quinta disminuida quedando de la siguiente manera: (Si tomamos como la tónica a La(A) ) la (A) do (C) re (D) mib (Eb) mi (E) sol (G) la (A) Puedes notarlo en la siguiente imagen que corresponde a la primera figura de la escala pentatónica de A(la) menor:   Escala menor de Blues en La Menor   Y la escala pentatónica de Blues completa: Escala pentatónica de blues completa    

Vamos con los Ejercicios de Blues

En el siguiente video de Carlos Dileo nos muestra unos ejercicios muy interesantes de Blues:

Vista previa del video en Youtube

DESCARGAR:   Video

 

  Y éstas son las tablaturas de los ejercicios:

EJERCICIO 1 
-----------3-----3-------------------------------------------  --------3----6^----6---3------------------------------------  ---5^-----------------------6--5--3------3/4---------------  ----------------------------------------5--------5~~--------  ---------------------------------------------------------------  --------------------------------------------------------------- 
--------------------------------------------------------1------ 
--------------------------------------------------------0------ 
----------3~~-----------------------------------------0------- 
--3/4/5--------5--4--3-------------------------------0------- 
----------------------------5--4--3-------------------2------- 
---------------------------------------6---3---1--2---3------ 



EJERCICIO 2 
-------3-----------------------------------------------------------3------ 
---6^----6--3-----------------------------------------------------3------ 
-----------------5^--5^/3-----3---------------------------------4------ 
-----------------------------5----5--3--5--3---------------------3------ 
------------------------------------------------5--4--3-----------5------- 
----------------------------------------------------------6---3~--3------- 



EJERCICIO 3 
-------6—8/9/8/6-----6-------------------------------------------------3---------3--------6^--6~~ 
----8----------------8-----8--6--8--6---3/6/3-----------------------3----3—6^----6--3---------- 
----------------------------------------------------6/5/3-----3---5^--------------------------------- 
------------------------------------------------------------5------------------------------------------ 
------------------------------------------------------------------------------------------------------- 
------------------------------------------------------------------------------------------------------- 

  Para finalizar te dejo con éste Backing Track de Blues en A(la) Menor para que puedas practicar lo que has aprendido. :)

Vista previa del video en Youtube

DESCARGAR:   Video

 


  Espero que el artículo te haya sido de ayuda, cualquier duda, comentario o sugerencia estoy a la orden. Saludos y mucha suerte con la práctica .lm/






  ¿Te gusto el articulo?   Nos interesa tu valoración!
1 Estrella2 Estrella3 Estrella4 Estrella5 Estrella (4 votos, rating: 5,00 de 5)
 

Publicado por: Hernán Quiñones

Hola!.. mi nombre es Hernán , soy de Nayarit, México. Soy el programador y diseñador de ésta comunidad, si tienen algún comentario y/o sugerencia, por favor no duden en contactarme. Espero que la web sea de tu agrado y la pases bien con nosotros. Saludos .lm/


Artículos Relacionados



2 Comentarios

  1. Raúl says:

    Excelente trabajo muchachos. saludos desde Costa Rica

    • Gracias a ti Raúl por visitarnos y dejar tu comentario.

      Saludos y mucha suerte .lm/

Tu opinión es importante!

Agregar un Comentario


Comenta como invitado o inicia sesión